999
"DXF R12 Output" (www.mydxf.blogspot.com)
 0 
SECTION
 2 
HEADER
 9 
$ACADVER
 1 
AC1009
 9 
$EXTMIN
 10 
 0 
 20 
 0 
 9 
$EXTMAX
 10 
 8.5 
 20 
 11 
 0 
ENDSEC
 0 
SECTION
 2 
ENTITIES
0
LINE
8
Layer 1
10
0.793749
20
297.793749
11
-0.793749
21
296.206251
0
LINE
8
Layer 1
10
0.000000
20
298.322915
11
0.000000
21
295.677085
0
LINE
8
Layer 1
10
2.116664
20
295.941668
11
1.058332
21
294.883336
0
LINE
8
Layer 1
10
1.587498
20
296.470834
11
0.529166
21
295.412502
0
LINE
8
Layer 1
10
1.058332
20
297.000000
11
0.000000
21
295.941668
0
LINE
8
Layer 1
10
148.728013
20
33.290110
11
166.511205
21
33.290110
0
LINE
8
Layer 1
10
166.511205
20
33.290110
11
166.511205
21
16.523321
0
LINE
8
Layer 1
10
166.511205
20
16.523321
11
148.728013
21
16.474617
0
LINE
8
Layer 1
10
148.728013
20
16.474617
11
148.728013
21
33.290110
0
LINE
8
Layer 1
10
161.711337
20
21.793435
11
158.909343
21
21.882446
0
LINE
8
Layer 1
10
158.909343
20
21.882446
11
156.827328
21
24.885303
0
LINE
8
Layer 1
10
156.827328
20
24.885303
11
156.767036
21
18.263231
0
LINE
8
Layer 1
10
156.767036
20
18.263231
11
161.711337
21
21.793435
0
LINE
8
Layer 1
10
164.765417
20
26.208709
11
159.925914
21
29.176298
0
LINE
8
Layer 1
10
159.925914
20
29.176298
11
161.093971
21
26.223824
0
LINE
8
Layer 1
10
161.093971
20
26.223824
11
159.336595
21
22.915308
0
LINE
8
Layer 1
10
159.336595
20
22.915308
11
164.765417
21
26.208709
0
LINE
8
Layer 1
10
158.993147
20
26.524446
11
156.523180
21
28.299625
0
LINE
8
Layer 1
10
156.523180
20
28.299625
11
156.507057
21
32.017927
0
LINE
8
Layer 1
10
156.507057
20
32.017927
11
156.365983
21
31.759292
0
LINE
8
Layer 1
10
156.365983
20
31.759292
11
153.463222
21
26.579868
0
LINE
8
Layer 1
10
153.463222
20
26.579868
11
158.993147
21
26.524446
0
LINE
8
Layer 1
10
101.456198
20
28.952931
11
95.152214
21
28.952931
0
LINE
8
Layer 1
10
95.152214
20
28.952931
11
95.152214
21
29.727157
0
LINE
8
Layer 1
10
95.152214
20
29.727157
11
102.359070
21
29.727157
0
LINE
8
Layer 1
10
102.359070
20
29.727157
11
102.359070
21
16.523321
0
LINE
8
Layer 1
10
102.359070
20
16.523321
11
101.456198
21
16.523321
0
LINE
8
Layer 1
10
101.456198
20
16.523321
11
101.456198
21
28.952931
0
LINE
8
Layer 1
10
103.181329
20
29.727157
11
104.084201
21
29.727157
0
LINE
8
Layer 1
10
104.084201
20
29.727157
11
104.084201
21
16.523321
0
LINE
8
Layer 1
10
104.084201
20
16.523321
11
103.181329
21
16.523321
0
LINE
8
Layer 1
10
103.181329
20
16.523321
11
103.181329
21
29.727157
0
LINE
8
Layer 1
10
104.970951
20
29.727157
11
122.744066
21
29.649902
0
LINE
8
Layer 1
10
122.744066
20
29.649902
11
113.886815
21
18.906461
0
LINE
8
Layer 1
10
113.886815
20
18.906461
11
113.886815
21
17.473890
0
LINE
8
Layer 1
10
113.886815
20
17.473890
11
128.703595
21
17.473890
0
LINE
8
Layer 1
10
128.703595
20
17.473890
11
128.703595
21
16.587140
0
LINE
8
Layer 1
10
128.703595
20
16.587140
11
113.000065
21
16.587140
0
LINE
8
Layer 1
10
113.000065
20
16.587140
11
113.000065
21
19.207082
0
LINE
8
Layer 1
10
113.000065
20
19.207082
11
120.916321
21
28.880714
0
LINE
8
Layer 1
10
120.916321
20
28.880714
11
105.809332
21
28.889112
0
LINE
8
Layer 1
10
105.809332
20
28.889112
11
105.809332
21
16.523321
0
LINE
8
Layer 1
10
105.809332
20
16.523321
11
104.970951
21
16.523321
0
LINE
8
Layer 1
10
104.970951
20
16.523321
11
104.970951
21
29.727157
0
LINE
8
Layer 1
10
64.954360
20
33.306233
11
65.841109
21
33.306233
0
LINE
8
Layer 1
10
65.841109
20
33.306233
11
65.849171
21
17.482287
0
LINE
8
Layer 1
10
65.849171
20
17.482287
11
77.739677
21
17.473890
0
LINE
8
Layer 1
10
77.739677
20
17.473890
11
77.739677
21
16.587140
0
LINE
8
Layer 1
10
77.739677
20
16.587140
11
64.954360
21
16.587140
0
LINE
8
Layer 1
10
64.954360
20
16.587140
11
64.954360
21
33.306233
0
LINE
8
Layer 1
10
74.063696
20
33.280873
11
75.071366
21
33.288935
0
LINE
8
Layer 1
10
75.071366
20
33.288935
11
83.505228
21
17.482287
0
LINE
8
Layer 1
10
83.505228
20
17.482287
11
93.136874
21
17.473890
0
LINE
8
Layer 1
10
93.136874
20
17.473890
11
93.144936
21
33.298172
0
LINE
8
Layer 1
10
93.144936
20
33.298172
11
93.967194
21
33.298172
0
LINE
8
Layer 1
10
93.967194
20
33.298172
11
93.975256
21
16.587140
0
LINE
8
Layer 1
10
93.975256
20
16.587140
11
82.968476
21
16.587140
0
LINE
8
Layer 1
10
82.968476
20
16.587140
11
74.063696
21
33.280873
0
LINE
8
Layer 1
10
130.485155
20
33.298172
11
143.971810
21
33.306401
0
LINE
8
Layer 1
10
143.971810
20
33.306401
11
143.971810
21
32.404200
0
LINE
8
Layer 1
10
143.971810
20
32.404200
11
131.428334
21
32.404200
0
LINE
8
Layer 1
10
131.428334
20
32.404200
11
131.428334
21
17.473890
0
LINE
8
Layer 1
10
131.428334
20
17.473890
11
143.971810
21
17.473890
0
LINE
8
Layer 1
10
143.971810
20
17.473890
11
143.971810
21
16.587140
0
LINE
8
Layer 1
10
143.971810
20
16.587140
11
130.477094
21
16.587140
0
LINE
8
Layer 1
10
130.477094
20
16.587140
11
130.485155
21
33.298172
0
LINE
8
Layer 1
10
66.844749
20
18.370716
11
66.743982
21
33.290110
0
LINE
8
Layer 1
10
66.743982
20
33.290110
11
67.630731
21
33.290110
0
LINE
8
Layer 1
10
67.630731
20
33.290110
11
67.630731
21
19.198685
0
LINE
8
Layer 1
10
67.630731
20
19.198685
11
77.739677
21
19.198685
0
LINE
8
Layer 1
10
77.739677
20
19.198685
11
77.739677
21
18.311936
0
LINE
8
Layer 1
10
77.739677
20
18.311936
11
66.844749
21
18.370716
0
LINE
8
Layer 1
10
84.014270
20
18.372396
11
76.019920
21
33.282049
0
LINE
8
Layer 1
10
76.019920
20
33.282049
11
76.978046
21
33.278354
0
LINE
8
Layer 1
10
76.978046
20
33.278354
11
84.456133
21
19.207082
0
LINE
8
Layer 1
10
84.456133
20
19.207082
11
91.411743
21
19.198685
0
LINE
8
Layer 1
10
91.411743
20
19.198685
11
91.411743
21
33.290110
0
LINE
8
Layer 1
10
91.411743
20
33.290110
11
92.250125
21
33.290110
0
LINE
8
Layer 1
10
92.250125
20
33.290110
11
92.250125
21
18.311936
0
LINE
8
Layer 1
10
92.250125
20
18.311936
11
84.014270
21
18.372396
0
LINE
8
Layer 1
10
114.759289
20
18.374075
11
124.684671
21
30.734827
0
LINE
8
Layer 1
10
124.684671
20
30.734827
11
95.151710
21
30.743224
0
LINE
8
Layer 1
10
95.151710
20
30.743224
11
95.160276
21
31.572873
0
LINE
8
Layer 1
10
95.160276
20
31.572873
11
126.543150
21
31.569514
0
LINE
8
Layer 1
10
126.543150
20
31.569514
11
116.531445
21
19.207082
0
LINE
8
Layer 1
10
116.531445
20
19.207082
11
128.703595
21
19.198685
0
LINE
8
Layer 1
10
128.703595
20
19.198685
11
128.703595
21
18.377434
0
LINE
8
Layer 1
10
128.703595
20
18.377434
11
114.759289
21
18.374075
0
LINE
8
Layer 1
10
132.266380
20
18.461407
11
132.264029
21
31.572873
0
LINE
8
Layer 1
10
132.264029
20
31.572873
11
143.915381
21
31.572873
0
LINE
8
Layer 1
10
143.915381
20
31.572873
11
143.923946
21
30.677726
0
LINE
8
Layer 1
10
143.923946
20
30.677726
11
133.088974
21
30.677726
0
LINE
8
Layer 1
10
133.088974
20
30.677726
11
133.097036
21
19.207082
0
LINE
8
Layer 1
10
133.097036
20
19.207082
11
143.971810
21
19.198685
0
LINE
8
Layer 1
10
143.971810
20
19.198685
11
143.971810
21
18.377434
0
LINE
8
Layer 1
10
143.971810
20
18.377434
11
132.266380
21
18.461407
0
LINE
8
Layer 1
10
68.460547
20
20.105588
11
68.461051
21
33.298172
0
LINE
8
Layer 1
10
68.461051
20
33.298172
11
69.291371
21
33.306737
0
LINE
8
Layer 1
10
69.291371
20
33.306737
11
69.291371
21
20.988979
0
LINE
8
Layer 1
10
69.291371
20
20.988979
11
77.740180
21
20.988979
0
LINE
8
Layer 1
10
77.740180
20
20.988979
11
77.731615
21
20.093832
0
LINE
8
Layer 1
10
77.731615
20
20.093832
11
68.460379
21
20.105588
0
LINE
8
Layer 1
10
68.460379
20
20.105588
11
68.460547
21
20.105588
0
LINE
8
Layer 1
10
118.417299
20
20.095511
11
127.091323
21
30.953156
0
LINE
8
Layer 1
10
127.091323
20
30.953156
11
127.091323
21
32.404200
0
LINE
8
Layer 1
10
127.091323
20
32.404200
11
95.151710
21
32.404200
0
LINE
8
Layer 1
10
95.151710
20
32.404200
11
95.160276
21
33.298172
0
LINE
8
Layer 1
10
95.160276
20
33.298172
11
127.978072
21
33.306401
0
LINE
8
Layer 1
10
127.978072
20
33.306401
11
127.976729
21
30.671008
0
LINE
8
Layer 1
10
127.976729
20
30.671008
11
120.258984
21
20.997376
0
LINE
8
Layer 1
10
120.258984
20
20.997376
11
128.703427
21
20.988979
0
LINE
8
Layer 1
10
128.703427
20
20.988979
11
128.703427
21
20.102229
0
LINE
8
Layer 1
10
128.703427
20
20.102229
11
118.417299
21
20.095511
0
LINE
8
Layer 1
10
134.104706
20
23.600524
11
143.971810
21
23.600524
0
LINE
8
Layer 1
10
143.971810
20
23.600524
11
143.971810
21
22.713774
0
LINE
8
Layer 1
10
143.971810
20
22.713774
11
134.943087
21
22.713774
0
LINE
8
Layer 1
10
134.943087
20
22.713774
11
134.943087
21
20.988979
0
LINE
8
Layer 1
10
134.943087
20
20.988979
11
143.971810
21
20.988979
0
LINE
8
Layer 1
10
143.971810
20
20.988979
11
143.971810
21
20.085435
0
LINE
8
Layer 1
10
143.971810
20
20.085435
11
134.104706
21
20.085435
0
LINE
8
Layer 1
10
134.104706
20
20.085435
11
134.104706
21
23.600524
0
LINE
8
Layer 1
10
77.983197
20
33.288431
11
78.991875
21
33.290110
0
LINE
8
Layer 1
10
78.991875
20
33.290110
11
85.583380
21
20.990658
0
LINE
8
Layer 1
10
85.583380
20
20.990658
11
89.622121
21
20.988979
0
LINE
8
Layer 1
10
89.622121
20
20.988979
11
89.622121
21
33.290110
0
LINE
8
Layer 1
10
89.622121
20
33.290110
11
90.460503
21
33.290110
0
LINE
8
Layer 1
10
90.460503
20
33.290110
11
90.460503
21
20.102229
0
LINE
8
Layer 1
10
90.460503
20
20.102229
11
84.986839
21
20.102229
0
LINE
8
Layer 1
10
84.986839
20
20.102229
11
77.983197
21
33.288431
0
LINE
8
Layer 1
10
134.040215
20
25.325319
11
143.971810
21
25.325319
0
LINE
8
Layer 1
10
143.971810
20
25.325319
11
143.971810
21
24.438569
0
LINE
8
Layer 1
10
143.971810
20
24.438569
11
134.040215
21
24.438569
0
LINE
8
Layer 1
10
134.040215
20
24.438569
11
134.040215
21
25.325319
0
LINE
8
Layer 1
10
134.104706
20
29.727157
11
143.971810
21
29.727157
0
LINE
8
Layer 1
10
143.971810
20
29.727157
11
143.971810
21
28.889112
0
LINE
8
Layer 1
10
143.971810
20
28.889112
11
134.943087
21
28.889112
0
LINE
8
Layer 1
10
134.943087
20
28.889112
11
134.943087
21
27.115612
0
LINE
8
Layer 1
10
134.943087
20
27.115612
11
143.971810
21
27.115612
0
LINE
8
Layer 1
10
143.971810
20
27.115612
11
143.971810
21
26.277567
0
LINE
8
Layer 1
10
143.971810
20
26.277567
11
134.104706
21
26.277567
0
LINE
8
Layer 1
10
134.104706
20
26.277567
11
134.104706
21
29.727157
0
LINE
8
Layer 1
10
82.298376
20
28.934457
11
81.850970
21
29.780900
0
LINE
8
Layer 1
10
81.850970
20
29.780900
11
88.735372
21
29.790976
0
LINE
8
Layer 1
10
88.735372
20
29.790976
11
88.735372
21
28.889112
0
LINE
8
Layer 1
10
88.735372
20
28.889112
11
82.298376
21
28.934457
0
LINE
8
Layer 1
10
80.960862
20
31.572873
11
88.735372
21
31.581270
0
LINE
8
Layer 1
10
88.735372
20
31.581270
11
88.735372
21
30.677726
0
LINE
8
Layer 1
10
88.735372
20
30.677726
11
81.423718
21
30.677726
0
LINE
8
Layer 1
10
81.423718
20
30.677726
11
80.960862
21
31.572873
0
LINE
8
Layer 1
10
80.048417
20
33.148029
11
88.735372
21
33.241742
0
LINE
8
Layer 1
10
88.735372
20
33.241742
11
88.735372
21
32.404200
0
LINE
8
Layer 1
10
88.735372
20
32.404200
11
80.472478
21
32.404200
0
LINE
8
Layer 1
10
80.472478
20
32.404200
11
80.048417
21
33.148029
 0 
ENDSEC
 0 
EOF