999
"DXF R12 Output" (www.mydxf.blogspot.com)
 0 
SECTION
 2 
HEADER
 9 
$ACADVER
 1 
AC1009
 9 
$EXTMIN
 10 
 0 
 20 
 0 
 9 
$EXTMAX
 10 
 8.5 
 20 
 11 
 0 
ENDSEC
 0 
SECTION
 2 
ENTITIES
0
LINE
8
Layer 1
10
65.101617
20
195.092320
11
60.759657
21
195.146220
0
LINE
8
Layer 1
10
60.759657
20
195.146220
11
61.025973
21
193.396623
0
LINE
8
Layer 1
10
61.025973
20
193.396623
11
61.110250
21
191.505440
0
LINE
8
Layer 1
10
61.110250
20
191.505440
11
60.840563
21
178.479560
0
LINE
8
Layer 1
10
60.840563
20
178.479560
11
60.972035
21
176.873921
0
LINE
8
Layer 1
10
60.972035
20
176.873921
11
61.356339
21
175.510051
0
LINE
8
Layer 1
10
61.356339
20
175.510051
11
61.978305
21
174.379419
0
LINE
8
Layer 1
10
61.978305
20
174.379419
11
62.822762
21
173.473491
0
LINE
8
Layer 1
10
62.822762
20
173.473491
11
63.874542
21
172.783734
0
LINE
8
Layer 1
10
63.874542
20
172.783734
11
65.118473
21
172.301615
0
LINE
8
Layer 1
10
65.118473
20
172.301615
11
66.539386
21
172.018602
0
LINE
8
Layer 1
10
66.539386
20
172.018602
11
68.122112
21
171.926160
0
LINE
8
Layer 1
10
68.122112
20
171.926160
11
70.319640
21
172.086498
0
LINE
8
Layer 1
10
70.319640
20
172.086498
11
72.302261
21
172.531271
0
LINE
8
Layer 1
10
72.302261
20
172.531271
11
74.072503
21
173.206121
0
LINE
8
Layer 1
10
74.072503
20
173.206121
11
75.632895
21
174.056690
0
LINE
8
Layer 1
10
75.632895
20
174.056690
11
76.985965
21
175.028618
0
LINE
8
Layer 1
10
76.985965
20
175.028618
11
78.134242
21
176.067547
0
LINE
8
Layer 1
10
78.134242
20
176.067547
11
79.826528
21
178.128970
0
LINE
8
Layer 1
10
79.826528
20
178.128970
11
77.372376
21
181.095520
0
LINE
8
Layer 1
10
77.372376
20
181.095520
11
75.737820
21
178.995754
0
LINE
8
Layer 1
10
75.737820
20
178.995754
11
74.774058
21
178.062964
0
LINE
8
Layer 1
10
74.774058
20
178.062964
11
73.701262
21
177.242369
0
LINE
8
Layer 1
10
73.701262
20
177.242369
11
72.510899
21
176.559567
0
LINE
8
Layer 1
10
72.510899
20
176.559567
11
71.194437
21
176.040157
0
LINE
8
Layer 1
10
71.194437
20
176.040157
11
69.743342
21
175.709738
0
LINE
8
Layer 1
10
69.743342
20
175.709738
11
68.149081
21
175.593910
0
LINE
8
Layer 1
10
68.149081
20
175.593910
11
66.680129
21
175.775526
0
LINE
8
Layer 1
10
66.680129
20
175.775526
11
65.499406
21
176.379370
0
LINE
8
Layer 1
10
65.499406
20
176.379370
11
65.050314
21
176.867281
0
LINE
8
Layer 1
10
65.050314
20
176.867281
11
64.713100
21
177.493934
0
LINE
8
Layer 1
10
64.713100
20
177.493934
11
64.501037
21
178.270390
0
LINE
8
Layer 1
10
64.501037
20
178.270390
11
64.427400
21
179.207710
0
LINE
8
Layer 1
10
64.427400
20
179.207710
11
64.751024
21
191.505440
0
LINE
8
Layer 1
10
64.751024
20
191.505440
11
65.101617
21
195.092280
0
LINE
8
Layer 1
10
65.101617
20
195.092280
11
65.101617
21
195.092320
0
LINE
8
Layer 1
10
94.902031
20
178.236880
11
94.929001
21
177.077230
0
LINE
8
Layer 1
10
94.929001
20
177.077230
11
94.759183
21
176.109725
0
LINE
8
Layer 1
10
94.759183
20
176.109725
11
94.278381
21
175.506299
0
LINE
8
Layer 1
10
94.278381
20
175.506299
11
93.529578
21
175.196158
0
LINE
8
Layer 1
10
93.529578
20
175.196158
11
92.555755
21
175.108510
0
LINE
8
Layer 1
10
92.555755
20
175.108510
11
91.328258
21
175.221441
0
LINE
8
Layer 1
10
91.328258
20
175.221441
11
90.442084
21
175.546751
0
LINE
8
Layer 1
10
90.442084
20
175.546751
11
89.904817
21
176.064213
0
LINE
8
Layer 1
10
89.904817
20
176.064213
11
89.724042
21
176.753600
0
LINE
8
Layer 1
10
89.724042
20
176.753600
11
89.918301
21
177.401693
0
LINE
8
Layer 1
10
89.918301
20
177.401693
11
90.489279
21
177.933482
0
LINE
8
Layer 1
10
90.489279
20
177.933482
11
91.419278
21
178.293345
0
LINE
8
Layer 1
10
91.419278
20
178.293345
11
92.690599
21
178.425660
0
LINE
8
Layer 1
10
92.690599
20
178.425660
11
94.902032
21
178.236880
0
LINE
8
Layer 1
10
94.902032
20
178.236880
11
94.902031
21
178.236880
0
LINE
8
Layer 1
10
86.838390
20
187.163520
11
86.865360
21
183.981210
0
LINE
8
Layer 1
10
86.865360
20
183.981210
11
90.155541
21
183.725009
0
LINE
8
Layer 1
10
90.155541
20
183.725009
11
93.283910
21
183.630620
0
LINE
8
Layer 1
10
93.283910
20
183.630620
11
94.686283
21
183.630620
0
LINE
8
Layer 1
10
94.686283
20
183.630620
11
94.794158
21
181.122530
0
LINE
8
Layer 1
10
94.794158
20
181.122530
11
93.122098
21
181.203430
0
LINE
8
Layer 1
10
93.122098
20
181.203430
11
91.643455
21
181.115834
0
LINE
8
Layer 1
10
91.643455
20
181.115834
11
90.329152
21
180.861686
0
LINE
8
Layer 1
10
90.329152
20
180.861686
11
89.189303
21
180.453942
0
LINE
8
Layer 1
10
89.189303
20
180.453942
11
88.234021
21
179.905560
0
LINE
8
Layer 1
10
88.234021
20
179.905560
11
87.473419
21
179.229498
0
LINE
8
Layer 1
10
87.473419
20
179.229498
11
86.917611
21
178.438714
0
LINE
8
Layer 1
10
86.917611
20
178.438714
11
86.576710
21
177.546166
0
LINE
8
Layer 1
10
86.576710
20
177.546166
11
86.460829
21
176.564810
0
LINE
8
Layer 1
10
86.460829
20
176.564810
11
86.566597
21
175.550535
0
LINE
8
Layer 1
10
86.566597
20
175.550535
11
86.882215
21
174.655090
0
LINE
8
Layer 1
10
86.882215
20
174.655090
11
87.405155
21
173.883533
0
LINE
8
Layer 1
10
87.405155
20
173.883533
11
88.132889
21
173.240920
0
LINE
8
Layer 1
10
88.132889
20
173.240920
11
89.062887
21
172.732307
0
LINE
8
Layer 1
10
89.062887
20
172.732307
11
90.192623
21
172.362752
0
LINE
8
Layer 1
10
90.192623
20
172.362752
11
91.519567
21
172.137311
0
LINE
8
Layer 1
10
91.519567
20
172.137311
11
93.041192
21
172.061040
0
LINE
8
Layer 1
10
93.041192
20
172.061040
11
94.291549
21
172.141999
0
LINE
8
Layer 1
10
94.291549
20
172.141999
11
95.373142
21
172.374972
0
LINE
8
Layer 1
10
95.373142
20
172.374972
11
96.286601
21
172.745106
0
LINE
8
Layer 1
10
96.286601
20
172.745106
11
97.032560
21
173.237548
0
LINE
8
Layer 1
10
97.032560
20
173.237548
11
97.611649
21
173.837442
0
LINE
8
Layer 1
10
97.611649
20
173.837442
11
98.024502
21
174.529937
0
LINE
8
Layer 1
10
98.024502
20
174.529937
11
98.271750
21
175.300177
0
LINE
8
Layer 1
10
98.271750
20
175.300177
11
98.354026
21
176.133310
0
LINE
8
Layer 1
10
98.354026
20
176.133310
11
98.327056
21
177.131150
0
LINE
8
Layer 1
10
98.327056
20
177.131150
11
99.883654
21
176.325462
0
LINE
8
Layer 1
10
99.883654
20
176.325462
11
101.313837
21
175.398414
0
LINE
8
Layer 1
10
101.313837
20
175.398414
11
103.774730
21
173.382500
0
LINE
8
Layer 1
10
103.774730
20
173.382500
11
105.716480
21
176.403000
0
LINE
8
Layer 1
10
105.716480
20
176.403000
11
104.354563
21
177.448881
0
LINE
8
Layer 1
10
104.354563
20
177.448881
11
102.628566
21
178.560496
0
LINE
8
Layer 1
10
102.628566
20
178.560496
11
100.558717
21
179.611431
0
LINE
8
Layer 1
10
100.558717
20
179.611431
11
98.165244
21
180.475270
0
LINE
8
Layer 1
10
98.165244
20
180.475270
11
97.976463
21
183.684550
0
LINE
8
Layer 1
10
97.976463
20
183.684550
11
101.597013
21
183.883439
0
LINE
8
Layer 1
10
101.597013
20
183.883439
11
105.096200
21
184.223920
0
LINE
8
Layer 1
10
105.096200
20
184.223920
11
105.096200
21
187.406230
0
LINE
8
Layer 1
10
105.096200
20
187.406230
11
101.711628
21
187.021923
0
LINE
8
Layer 1
10
101.711628
20
187.021923
11
97.922526
21
186.758980
0
LINE
8
Layer 1
10
97.922526
20
186.758980
11
97.922526
21
189.536760
0
LINE
8
Layer 1
10
97.922526
20
189.536760
11
104.772580
21
190.130070
0
LINE
8
Layer 1
10
104.772580
20
190.130070
11
104.799580
21
193.231470
0
LINE
8
Layer 1
10
104.799580
20
193.231470
11
101.327365
21
192.756146
0
LINE
8
Layer 1
10
101.327365
20
192.756146
11
97.976503
21
192.503310
0
LINE
8
Layer 1
10
97.976503
20
192.503310
11
98.003473
21
193.609030
0
LINE
8
Layer 1
10
98.003473
20
193.609030
11
98.165285
21
195.523810
0
LINE
8
Layer 1
10
98.165285
20
195.523810
11
94.524470
21
195.523810
0
LINE
8
Layer 1
10
94.524470
20
195.523810
11
94.686282
21
193.662970
0
LINE
8
Layer 1
10
94.686282
20
193.662970
11
94.686282
21
192.395440
0
LINE
8
Layer 1
10
94.686282
20
192.395440
11
93.634502
21
192.395440
0
LINE
8
Layer 1
10
93.634502
20
192.395440
11
90.415114
21
192.570734
0
LINE
8
Layer 1
10
90.415114
20
192.570734
11
86.973233
21
192.988750
0
LINE
8
Layer 1
10
86.973233
20
192.988750
11
87.054143
21
189.914320
0
LINE
8
Layer 1
10
87.054143
20
189.914320
11
90.388148
21
189.580580
0
LINE
8
Layer 1
10
90.388148
20
189.580580
11
93.661474
21
189.428880
0
LINE
8
Layer 1
10
93.661474
20
189.428880
11
94.659316
21
189.428880
0
LINE
8
Layer 1
10
94.659316
20
189.428880
11
94.632346
21
186.651100
0
LINE
8
Layer 1
10
94.632346
20
186.651100
11
93.337849
21
186.651100
0
LINE
8
Layer 1
10
93.337849
20
186.651100
11
90.209480
21
186.785948
0
LINE
8
Layer 1
10
90.209480
20
186.785948
11
86.838392
21
187.163510
0
LINE
8
Layer 1
10
86.838392
20
187.163510
11
86.838390
21
187.163520
0
LINE
8
Layer 1
10
112.890150
20
185.113900
11
114.292530
21
181.607970
0
LINE
8
Layer 1
10
114.292530
20
181.607970
11
119.386244
21
183.576681
0
LINE
8
Layer 1
10
119.386244
20
183.576681
11
122.419801
21
184.452320
0
LINE
8
Layer 1
10
122.419801
20
184.452320
11
123.838134
21
184.719163
0
LINE
8
Layer 1
10
123.838134
20
184.719163
11
125.106980
21
184.817240
0
LINE
8
Layer 1
10
125.106980
20
184.817240
11
126.699394
21
184.566516
0
LINE
8
Layer 1
10
126.699394
20
184.566516
11
127.915091
21
183.863224
0
LINE
8
Layer 1
10
127.915091
20
183.863224
11
128.690863
21
182.780685
0
LINE
8
Layer 1
10
128.690863
20
182.780685
11
128.963500
21
181.392220
0
LINE
8
Layer 1
10
128.963500
20
181.392220
11
128.755651
21
180.110572
0
LINE
8
Layer 1
10
128.755651
20
180.110572
11
128.155282
21
179.012228
0
LINE
8
Layer 1
10
128.155282
20
179.012228
11
127.197156
21
178.090867
0
LINE
8
Layer 1
10
127.197156
20
178.090867
11
125.916037
21
177.340168
0
LINE
8
Layer 1
10
125.916037
20
177.340168
11
124.346691
21
176.753809
0
LINE
8
Layer 1
10
124.346691
20
176.753809
11
122.523882
21
176.325470
0
LINE
8
Layer 1
10
122.523882
20
176.325470
11
120.482373
21
176.048831
0
LINE
8
Layer 1
10
120.482373
20
176.048831
11
118.256930
21
175.917570
0
LINE
8
Layer 1
10
118.256930
20
175.917570
11
119.686270
21
172.600420
0
LINE
8
Layer 1
10
119.686270
20
172.600420
11
122.701284
21
172.930525
0
LINE
8
Layer 1
10
122.701284
20
172.930525
11
125.314298
21
173.506825
0
LINE
8
Layer 1
10
125.314298
20
173.506825
11
127.525310
21
174.315096
0
LINE
8
Layer 1
10
127.525310
20
174.315096
11
129.334320
21
175.341119
0
LINE
8
Layer 1
10
129.334320
20
175.341119
11
130.741328
21
176.570670
0
LINE
8
Layer 1
10
130.741328
20
176.570670
11
131.746335
21
177.989529
0
LINE
8
Layer 1
10
131.746335
20
177.989529
11
132.349339
21
179.583472
0
LINE
8
Layer 1
10
132.349339
20
179.583472
11
132.550340
21
181.338280
0
LINE
8
Layer 1
10
132.550340
20
181.338280
11
132.419183
21
182.791376
0
LINE
8
Layer 1
10
132.419183
20
182.791376
11
132.037091
21
184.088664
0
LINE
8
Layer 1
10
132.037091
20
184.088664
11
131.421129
21
185.218452
0
LINE
8
Layer 1
10
131.421129
20
185.218452
11
130.588364
21
186.169046
0
LINE
8
Layer 1
10
130.588364
20
186.169046
11
129.555862
21
186.928753
0
LINE
8
Layer 1
10
129.555862
20
186.928753
11
128.340690
21
187.485878
0
LINE
8
Layer 1
10
128.340690
20
187.485878
11
126.959914
21
187.828728
0
LINE
8
Layer 1
10
126.959914
20
187.828728
11
125.430600
21
187.945610
0
LINE
8
Layer 1
10
125.430600
20
187.945610
11
122.799046
21
187.696572
0
LINE
8
Layer 1
10
122.799046
20
187.696572
11
120.053717
21
187.106211
0
LINE
8
Layer 1
10
120.053717
20
187.106211
11
115.748840
21
185.842050
0
LINE
8
Layer 1
10
115.748840
20
185.842050
11
112.890150
21
185.113900
0
LINE
8
Layer 1
10
112.890150
20
185.113900
11
112.890150
21
185.113900
0
LINE
8
Layer 1
10
150.376640
20
187.082610
11
150.376640
21
183.900310
0
LINE
8
Layer 1
10
150.376640
20
183.900310
11
152.928555
21
184.129541
0
LINE
8
Layer 1
10
152.928555
20
184.129541
11
155.581600
21
184.196960
0
LINE
8
Layer 1
10
155.581600
20
184.196960
11
158.012154
21
184.095829
0
LINE
8
Layer 1
10
158.012154
20
184.095829
11
160.220220
21
183.873340
0
LINE
8
Layer 1
10
160.220220
20
183.873340
11
160.301120
21
187.109580
0
LINE
8
Layer 1
10
160.301120
20
187.109580
11
155.554620
21
187.352300
0
LINE
8
Layer 1
10
155.554620
20
187.352300
11
150.376630
21
187.082610
0
LINE
8
Layer 1
10
150.376630
20
187.082610
11
150.376640
21
187.082610
0
LINE
8
Layer 1
10
151.832950
20
180.286500
11
148.623680
21
180.610130
0
LINE
8
Layer 1
10
148.623680
20
180.610130
11
148.300054
21
178.863904
0
LINE
8
Layer 1
10
148.300054
20
178.863904
11
148.138240
21
176.996320
0
LINE
8
Layer 1
10
148.138240
20
176.996320
11
148.252541
21
176.030029
0
LINE
8
Layer 1
10
148.252541
20
176.030029
11
148.592494
21
175.177197
0
LINE
8
Layer 1
10
148.592494
20
175.177197
11
149.153675
21
174.442564
0
LINE
8
Layer 1
10
149.153675
20
174.442564
11
149.931659
21
173.830870
0
LINE
8
Layer 1
10
149.931659
20
173.830870
11
150.922022
21
173.346856
0
LINE
8
Layer 1
10
150.922022
20
173.346856
11
152.120339
21
172.995263
0
LINE
8
Layer 1
10
152.120339
20
172.995263
11
153.522187
21
172.780831
0
LINE
8
Layer 1
10
153.522187
20
172.780831
11
155.123140
21
172.708300
0
LINE
8
Layer 1
10
155.123140
20
172.708300
11
158.116660
21
172.826287
0
LINE
8
Layer 1
10
158.116660
20
172.826287
11
160.624750
21
173.085860
0
LINE
8
Layer 1
10
160.624750
20
173.085860
11
160.759590
21
176.537850
0
LINE
8
Layer 1
10
160.759590
20
176.537850
11
157.904284
21
176.123209
0
LINE
8
Layer 1
10
157.904284
20
176.123209
11
155.150100
21
175.971510
0
LINE
8
Layer 1
10
155.150100
20
175.971510
11
153.355418
21
176.129109
0
LINE
8
Layer 1
10
153.355418
20
176.129109
11
152.220626
21
176.564822
0
LINE
8
Layer 1
10
152.220626
20
176.564822
11
151.626894
21
177.223028
0
LINE
8
Layer 1
10
151.626894
20
177.223028
11
151.455390
21
178.048100
0
LINE
8
Layer 1
10
151.455390
20
178.048100
11
151.832950
21
180.286500
0
LINE
8
Layer 1
10
151.832950
20
180.286500
11
151.832950
21
180.286500
0
LINE
8
Layer 1
10
141.908470
20
191.208830
11
138.510420
21
191.397610
0
LINE
8
Layer 1
10
138.510420
20
191.397610
11
138.591320
21
188.053490
0
LINE
8
Layer 1
10
138.591320
20
188.053490
11
141.854530
21
187.945610
0
LINE
8
Layer 1
10
141.854530
20
187.945610
11
143.634470
21
187.999510
0
LINE
8
Layer 1
10
143.634470
20
187.999510
11
143.068130
21
185.734140
0
LINE
8
Layer 1
10
143.068130
20
185.734140
11
142.145712
21
182.624310
0
LINE
8
Layer 1
10
142.145712
20
182.624310
11
140.967936
21
179.261649
0
LINE
8
Layer 1
10
140.967936
20
179.261649
11
139.673860
21
176.101253
0
LINE
8
Layer 1
10
139.673860
20
176.101253
11
138.402540
21
173.598220
0
LINE
8
Layer 1
10
138.402540
20
173.598220
11
142.151190
21
172.330690
0
LINE
8
Layer 1
10
142.151190
20
172.330690
11
143.321801
21
175.104677
0
LINE
8
Layer 1
10
143.321801
20
175.104677
11
144.497468
21
178.361571
0
LINE
8
Layer 1
10
144.497468
20
178.361571
11
146.439210
21
184.817200
0
LINE
8
Layer 1
10
146.439210
20
184.817200
11
147.275240
21
188.269200
0
LINE
8
Layer 1
10
147.275240
20
188.269200
11
149.951887
21
188.653501
0
LINE
8
Layer 1
10
149.951887
20
188.653501
11
152.507170
21
189.159160
0
LINE
8
Layer 1
10
152.507170
20
189.159160
11
152.507170
21
192.530250
0
LINE
8
Layer 1
10
152.507170
20
192.530250
11
148.003400
21
191.667250
0
LINE
8
Layer 1
10
148.003400
20
191.667250
11
148.219150
21
192.692060
0
LINE
8
Layer 1
10
148.219150
20
192.692060
11
148.785490
21
195.227120
0
LINE
8
Layer 1
10
148.785490
20
195.227120
11
144.659280
21
195.550750
0
LINE
8
Layer 1
10
144.659280
20
195.550750
11
144.578380
21
192.826910
0
LINE
8
Layer 1
10
144.578380
20
192.826910
11
144.335670
21
191.289690
0
LINE
8
Layer 1
10
144.335670
20
191.289690
11
141.908480
21
191.208790
0
LINE
8
Layer 1
10
141.908480
20
191.208790
11
141.908470
21
191.208830
 0 
ENDSEC
 0 
EOF